Guitar lessons in Lincoln    Electric Guitar Pieces    Classical And Flamenco Guitar Pieces    Studies    Are You A Composer?   
     Chords    Notes On The Fretboard    Practice    Nails    HomePage     Guitar Lessons with David Truelove

Looking for a guitar tutor in Lincoln and NewarkDavid Truelove Tel : 07597 093884 

e-mail davidtruelove(at)fsmail.net             Guitar lessons in Lincoln and Newark  

GUITAR LESSONS IN LINCOLN AND NEWARK

The minor pentatonic is in green. The blues scales with the extra notes are shown in blue. Notice the similarity between them. Lincoln Guitar Tuition will teach you how to play guitar and use these in your guitar lessons to become a great guitarist.

Fret numbers are indicated in pink under the starting note of each. They are all in the key of A.

blues8.gif (15169 bytes)

   DIAGONAL BLUES/ROCK
  Ascending 3 octave run shown in G

e-------------------------------8-9-10-13-15---------------
B------------------------6-8-11----------------------------
G------------------5-6-7-----------------------------------
D------------3-5-8-----------------------------------------
A------3-4-5-----------------------------------------------
E--3-6-----------------------------------------------------

Whole pattern showing Key notes:

Descending 3 octave run shown in G

e--15-13---------------------------------------------------
B--------15-14-13------------------------------------------
G-----------------15-12-10---------------------------------
D--------------------------12-11-10------------------------
A-----------------------------------13-10-8----------------
E-------------------------------------------10-9-8-6-3-----

Whole pattern showing Key notes:

Bookmark this Website